Visací zámek - Známka punku

Riffy, sóla, techniky, cvičení... aneb praxe všeobecně
Odpovědět
SpeedEX
Příspěvky: 74
Registrován: 04 led 2010 20:37

Visací zámek - Známka punku

Příspěvek od SpeedEX » 11 bře 2011 08:22

:kapela:

Kód: Vybrat vše

intro+holinky nosil...

e |-----------------|--------------------------------------------|
h |-----------------|--------------------------------------------|
g |-------7---------|-------7------------------------------------|
d |-2-2-2-7-7-7-5-5-|-2-2-2-7-7-7-5-5-4-4------------------------|
a |-2-2-2-5-7-7-5-5-|-2-2-2-5-7-7-5-5-4-4------------------------|
e |-0-0-0---5-5-3-3-|-0-0-0---5-5-3-3-2-2------------------------|

dál

e |--------------------------------------------------------------|
h |--------------------------------------------------------------|
g |-------7-----10-10--10----------------------------------------|
d |-2-2-2-7-7-7-10-10--10----------------------------------------|
a |-2-2-2-5-7-7-8---8---8----------------------------------------|
e |-0-0-0---5-5--------------------------------------------------|

ale holky řikaly   

e |--------------------------------------------------------------|
h |--------------------------------------------------------------|
g |-9-9-10-9-10-9-10-10-12-10-9----------------------------------|
d |-9-9-10-9-10-9-10-10-12-10-9----------------------------------|
a |-7-7-8--7-8--7-8--8--10-8--7----------------------------------|
e |--------------------------------------------------------------|

dál

e |--------------------------------------------------------------|
h |--------------------------------------------------------------|
g |--------------------------------------------------------------|
d |-2-2-2-2-5-5-5-5-4-4-4-4-7-7-7-7------------------------------|
a |-2-2-2-2-5-5-5-5-4-4-4-4-7-7-7-7------------------------------|
e |-0-0-0-0-3-3-3-3-2-2-2-2-5-5-5-5------------------------------|

Odpovědět