Tourdion - Batalion - Markytánka

Riffy, sóla, techniky, cvičení... aneb praxe všeobecně
Odpovědět
Dejvis
Příspěvky: 68
Registrován: 30 pro 2010 15:46

Tourdion - Batalion - Markytánka

Příspěvek od Dejvis » 29 dub 2012 16:46

Tak jsem zašel asi po půl roce opět na návštěvu a rád bych se trochu poradil s touto písní. Podařilo se mi ji podle jednoho videa tak nějak zjednodušeně otabovat a něco málo (snad správně) odposlouchat i z verze od skupiny Spirituál kvintet. Budu rád, když to třebas někomu pomůže a nebo se nám tu alespoň společně podaří tyto taby dotáhnout k dokonalosti a tím posunout dále i mě... :) Nikde na netu jsem žádné taby k této skladbě nenašel a tak mně nezbylo nic jiného, než se do toho pustit sám - a že to byla fuška... :D Za veškeré nepřesnosti se předem omlouvám, sice hraji už něco kolem dvou let, ale jako samouk mám hudební základy stále téměř nulové... :cry:

Edit: Jo a akord F zde stačí hrát bez barré, jelikož struna E se nehraje... 8-)

Kód: Vybrat vše

Skladba: Tourdion, Batalion / Markytánka - Spirituál kvintet.
Autor tabů: David "DMC" Midrla - DMC.MotoBiker@gmail.com
Verze tabů: První, časem snad ještě upravím! :)


Inspirováno verzí od autora "KidaReborn" a odposloucháno 
z verze od Spirituál kvintet. Nejsem hudebník a hraju si 
jen pro radost, proto prosím omluvte případné nepřesnosti 
a pokud máte k tabům nějaké připomínky či jejich úpravu 
nebo doplnění, napište mi prosím na můj e-mail, viz. výše!

Je to zjednodušená odposlouchaná a okoukaná verze určená 
pro jednu kytaru nebo jako doprovod, berte to však prosím 
jenom jako základ pro nějaké své další vlastní rozvinutí!

Jedná se o jedny z prvních tabů, které jsem napsal a dalo 
mi to docela zabrat, tak snad se budou někomu hodit! ;)



Intro / Outro / Mezihra.

(Tady se mi to nepodařilo úplně trefit, snad příště! :)

                 ...Víno máš a mar-ky-tánku...

  Am                      C                       F
e|---0-----0-----0-----0-|---0-----0---|---1-----1---|
H|-------1-----------1---|-------1-----|-------1-----|
G|-----2-----------2-----|-----0-------|-----2-------|
D|-----------------------|-------------|-------------|
A|-0~~---------0~~-------|-3~~---------|-3~~---------|
E|-----------------------|-------------|-------------|


           ...dlouhá noc se pro-hý-ří...

  Am                      F    G   Am   
e|---0-----0-----0-----0-|--1---3---0~~-|
H|-------1-----------1---|--1---0---1~~-|
G|-----2-----------2-----|--2---0---2~~-|
D|-----------------------|--------------|
A|-0~~---------0~~-------|--3-------0~~-|
E|-----------------------|------3-------|



Část I. - Part I. 

  ...Tam na straně polední, čekají ženy zlaťáky a slá-va...

  Am                       C                 F
e|------------------------|-0---------------|--------------|
H|----0-1-3-1-0-----0-1-3-|-1--3--1-1--3-0--|-1---0--------|
G|-2------------2---------|-0---------------|-2-----2--0---|
D|------------------------|-----------------|--------------|
A|-0------------0---------|-3---------------|-3--------0---|
E|------------------------|-----------------|--------------|


...Do výstřelů karabin zvon už vy-zvá-ní...

  Am                      F    G   Am  
e|-----------------------|--1---3---0~~-|
H|----0-1-3-1-0-----1-0--|--1---0---1~~-|
G|-2------------2---2-2--|--2---0---2~~-|
D|-----------------------|--------------|
A|-0------------0---0-0--|--3-------0~~-|
E|-----------------------|------3-------|



Část II. - Part II. 

  ...Neplač sladká Marion...  ...verbíři nové chlapce přive-dou ti...

  Am               C               G                    F
e|-0--0-----------|--0------------|-3---2--0-----------|--------------|
H|----1---0--1--3-|--1---3--1--0--|-0---------3--1--0--|-1---0--------|
G|----2-----------|--0------------|--------------------|-2-----2--0---|
D|----------------|---------------|--------------------|--------------|
A|----0-----------|--3------------|-2------------------|-3--------0---|
E|----------------|---------------|--------------------|--------------|


  ...za královský hermelín padne kaž-dý rád...

  Am             C               F    G   Am             
e|--0-----------|--0------------|--1---3---0~~-|
H|--1---0--1--3-|--1---3--1--0--|--1---0---1~~-|
G|--2-----------|--0------------|--2---0---2~~-|
D|--------------|---------------|--------------|
A|--0-----------|--3------------|--3-------0~~-|
E|--------------|---------------|------3-------|

Video možná přihodím časem... :)

Odpovědět