Toulavej

Riffy, sóla, techniky, cvičení... aneb praxe všeobecně
Odpovědět
CreAtive_34
Příspěvky: 88
Registrován: 24 lis 2009 20:16

Toulavej

Příspěvek od CreAtive_34 » 14 črc 2011 02:03

Ahoj,
nenašla by se dobrá duše, co by mi dokázala napsat to vybrnkávání na začátku? Díky moc ;) [youtube]http://www.youtube.com/watch?v=a18xMhOi ... re=related[/youtube]

Milan
Příspěvky: 372
Registrován: 04 led 2011 09:11

Re: Toulavej

Příspěvek od Milan » 14 črc 2011 09:43

Takže zase horkou jehlou jsem to sepsal takhle (je to moje varianta, takhle se mi to líbí :) a netvrdím, že je to podle originálu), délky not a transponování si už určitě naposloucháš a upravíš sám.
Šeptem: I ty CreAtive? :D Takovej zkušenej matador?
Jak se daří kaktusům?

Kód: Vybrat vše

e-------------/--------------/-------------/--------------/--------3----/
H-------------/--------------/-------------/--3--3--1--3--/--3--3-------/
G--0--2--3----/--3--2--0--2--/--0--2--3----/--------------/-------------/
D-------------/--------------/-------------/--------------/-------------/
A-------------/--------------/-------------/--------------/-------------/
E-------------/--------------/-------------/--------------/-------------/

e--5--6--5--3--/--5--6--5--3--/--3--1--3----/--3--1--3----/
H--------------/--------------/-------------/-------------/
G--------------/--------------/-------------/-------------/
D--------------/--------------/-------------/-------------/
A--------------/--------------/-------------/-------------/
E--------------/--------------/-------------/-------------/


CreAtive_34
Příspěvky: 88
Registrován: 24 lis 2009 20:16

Re: Toulavej

Příspěvek od CreAtive_34 » 14 črc 2011 14:41

Děkuju moc, jdu to zkusit :-)
šeptem:Nejsem všeuměl, dost věcí odposlouchám, ale s brnkáním mívám problémy pořád :( O kaktus jsem se před chvílí popíchal při přesazování :lol:

Odpovědět