Solo - Smells like teen spirit

Riffy, sóla, techniky, cvičení... aneb praxe všeobecně
Odpovědět
SpeedEX
Příspěvky: 74
Registrován: 04 led 2010 20:37

Solo - Smells like teen spirit

Příspěvek od SpeedEX » 08 bře 2011 20:57

Docela lehké solo hlavne nejdriv naposlouchat :)

Kód: Vybrat vše

e|--------------|---------------|-------------|-------------|
B|--------------|---------------|-------------|-------------|
G|-----8h10-----|-8-8^----6--5--|-6--5--------|-------------|
D|-10--------6--|---------------|-------8-6-8-|-8^----6--5--|
A|--------------|---------------|-------------|-------------|
E|--------------|---------------|-------------|-------------|

e|--------------|---------------|-------------|-------------|
B|--------------|---------------|-------------|-------------|
G|-----8h10-----|-8-8^----6--5--|-6--5--------|-------------|
D|-10--------6--|---------------|-------8-6-8-|-8^----6--5--|
A|--------------|---------------|-------------|-------------|
E|--------------|---------------|-------------|-------------|

e|-------------|--------------|-------------|--------------|
B|-------------|--------------|-------------|--------------|
G|-------------|--------------|-------------|--------------|
D|-6--5--6--5--|-6--5--6/5--3-|-6--5--6--5--|-6--5--6/5-3~~|
A|-------------|--------------|-------------|-------------|
E|-------------|--------------|-------------|--------------|

Odpovědět