Rozcvičky a cvičení na fingerpicking

Riffy, sóla, techniky, cvičení... aneb praxe všeobecně
Odpovědět
Smajda
Příspěvky: 409
Registrován: 06 dub 2009 18:44

Rozcvičky a cvičení na fingerpicking

Příspěvek od Smajda » 02 srp 2009 20:21

Tady přikládám pár "rozcviček" pravé ruky na vybrnkávání nebo se to dá pojmout na naučení základů fingerpickingu ;) . napíšu to jako 0ly ale hrajte to na akord C nebo Amol(Ami(Am)) já to střídám

1.verze

Kód: Vybrat vše

|---------0-------------------|      - prsteníček
|----------------------0------|      - prostředníček
|-----------------------------|
|----0------0-----0------0----|      -palec
|--0---0--------0---0---------|      -palec
|-----------------------------|
2. verze

Kód: Vybrat vše

|--------0--------------------|      - prsteníček
|-------------0---------------|      - prostředníček
|-----------------------------|
|----0-----0------------------|      -palec
|--0---0----------------------|      -palec
|-----------------------------|
3. verze

Kód: Vybrat vše

|--------0------------------0-|      - prsteníček
|-------------0---------0-----|      - prostředníček
|-----------------------------|
|----0-----0-------0------0---|      -palec
|--0---0---------0---0--------|      -palec
|-----------------------------|
postupně budu přidávat další, můžete psát sovoje rozcvičky a nebo psát komentáře :-) za každý příspěvek jsem rád :thx:
Takovej malilinkatej kytarista Šmajdíček :)

Podpoře prosím fórum přidáním banneru na váš web.

P3to
Příspěvky: 26
Registrován: 11 dub 2009 22:50

Re: Rozcvičky a cvičení na fingerpicking

Příspěvek od P3to » 07 zář 2009 17:09

ja sa rozcvicujem takto:

Kód: Vybrat vše

E-0h2-
A-0h2-
D-0h2-
G-0h2-
H-0h2-
e-0h2-
alebo

Kód: Vybrat vše

   i  m r  p 
E-1-2-3-4-----------------------------------------
A---------1-2-3-4---------------------------------
D-----------------1-2-3-4-------------------------
G-------------------------1-2-3-4-----------------
H---------------------------------1-2-3-4---------
e-----------------------------------------1-2-3-4-

Kód: Vybrat vše

   p  r m i
E-4-3-2-1-----------------------------------------
A---------4-3-2-1---------------------------------
D-----------------4-3-2-1-------------------------
G-------------------------4-3-2-1-----------------
H---------------------------------4-3-2-1---------
e-----------------------------------------4-3-2-1-
Highway to hell

SWED
Příspěvky: 14
Registrován: 09 pro 2009 16:30

Re: Rozcvičky a cvičení na fingerpicking

Příspěvek od SWED » 03 led 2010 19:52

No ja si treba chytnu Dcko , a vybrnkam secky struny co drzim , pak prehodim akord na neco co me napadne a zas je brnknu vsechny postupne

Odpovědět