Power akord - 8.část: mollový dvojhmat

Riffy, sóla, techniky, cvičení... aneb praxe všeobecně
Odpovědět
Milan
Příspěvky: 372
Registrován: 04 led 2011 09:11

Power akord - 8.část: mollový dvojhmat

Příspěvek od Milan » 24 bře 2011 11:24

U power akordů ve své základní podstatě vynecháváme tercii (v klasické kvintakordu je to druhý stupeň). Tato tercie určuje mollový nebo durový charakter akordu.
V dnešní moderní hudbě nám nic nebrání experimentovat a tuto chybějící tercii do power akordu "vpašovat". Musíme to ovšem udělat na úkor kvinty (druhý tón power akordu). Při větším zkreslení by se tóny plného kvintakordu totiž začaly slévat.

Mollový charakter power akordu (mollový dvojhmat)
Při mollovém dvojhmatu tedy nebudeme hrát druhý tón power akordu kvintu, ale nahradíme ho malou (mollovou) tercií. V minulé části jsem popsal interval malé tercie a tak jen zopakuji, že je to interval 3 půltóny = 3 pražce kytary.

Interval malé tercie tedy najdeme na sousedních strunách takto (opět "p" značí číslo pražce):
Úmyslně dávám druhý tón do závorky, abych zdůraznil znaménko "mínus" v závorce.
e------------------------------------------(p-2)------
H---------------------------------(p-1)------p--------
G------------------------(p-2)------p-----------------
D---------------(p-2)------p--------------------------
A------(p-2)------p-----------------------------------
E--------p--------------------------------------------


Osobně jsem se nikde nesetkal s akordovou značkou mollových a durových power akordů (asi proto že to akordy nejsou). A tak pouze pro účely tohoto povídání si dovolím použít tento hybrid (znalci hudby ať mne prosím nekamenují :) ):
X3 a X3m
X = základní tón power akordu
3 = interval tercie
m = malá mollová tercie
bez přípony "m" = velká durová tercie

Jako příklad bych uvedl power akord A5 (základní + mollový dvojhmat):

e--------------------------------------------
H--------------------------------------------
G--------------------------------------------
D--------------------------------------------
A--------------7-----------------3-----------
E--------------5-----------------5-----------
akord........A5...............A3m
tóny.........A+E..............A+C
interval..čistá kvinta......malá tercie


S použitím prázdných strun mohu zahrát tyto mollové intervaly:

e-----------------------------------------------------0--------
H------------------------------------------0----------2--------
G-------------------------------0----------1-------------------
D--------------------0----------2------------------------------
A---------0----------2-----------------------------------------
E---------2----------------------------------------------------
akord.F#3m.....H3m......E3m.....G#3m......C#3m
tóny...F#+A.....H+D.......E+G......G#+H......C#+e


Mollový interval malé tercie je z psychologického hlediska vroucný, působí měkce, smutně a zádumčivě.

Mollovým dvojhmatem H3m začíná např. skladba Ballbreaker od AC/DC:
http://www.911tabs.com/link/?5378195

Odpovědět