Power akord - 6.část: alterované power akordy

Riffy, sóla, techniky, cvičení... aneb praxe všeobecně
Odpovědět
Milan
Příspěvky: 372
Registrován: 04 led 2011 09:11

Power akord - 6.část: alterované power akordy

Příspěvek od Milan » 22 bře 2011 09:30

Alterované akordy jsou změněné akordy.
Změněné akordy vzniknou snížením nebo zvýšením některých tónů (kromě tónu základního) podle určitých pravidel. Tyto zmenšené nebo zvětšené akordy ve skladbách obvykle neplní žádnou harmonickou funkci a jejich použití je méně časté (jsou doménou jazzu).

1. Zmenšený power akord
Abysme získali zmenšený power akord, nahradíme jeho druhý tón (čistou kvintu) kvintou zmenšenou. Vznikne nám tak interval 6.půltónů (= 6 pražců).
Prostě a jednoduše posuneme druhý prst o jeden pražec směrem k hlavě kytary.
Za akordovou značkou power akordu píšeme znaménko "-" (mínus). Tím vyjádříme zmenšenou kvintu.
Neplést to s akordovou značkou zmenšeného kvintakordu. Tam je zmenšená kvinta vyjádřena znaménkem "5-", ale v horním indexu akordové značky.
Doporučuji navštívit Wikipedii: http://cs.wikipedia.org/wiki/Akordov%C3 ... .AF_akordu

Opět vzorec pro nalezení zmenšených power akordů (p = číslo jakéhokoli pražce):

e---------------------------------------p+1-------
H------------------------------p+2------p--------
G----------------------p+1------p----------------
D--------------p+1------p------------------------
A------p+1------p--------------------------------
E-------p-----------------------------------------


Uvedený interval "zmenšená kvinta" se také nazývá "tritón". Je to interval celých tří tónů.
Tritón je přesně uprostřed oktávy a tudíž jí dělí přesně na dvě poloviny. Je zajímavý tím, že pokud jdeme o tritón výš, dostaneme stejný tón, jako když půjdeme o tritón níž (samozřejmě v jiné oktávě):

C---Cis---D---Dis---E---F---Fis---G---Gis---A---Ais---H---C1--- atd.
C----> interval tritón----> Fis ----> interval tritón----> C1---> atd.

Tritón je interval nezpěvný s depresivním charakterem. Skladatelé staré klasické hudby ho nepoužívali a také se s ním v této hudbě nesetkáte. Byl nazýván ďáblem v hudbě.
O intervalech v hudbě se nejvíce dozvíte z tohoto článku:
http://webhouse.cz/kurz-harmonie/intervaly.htm

2. Zvětšený power akord
Zvětšený power akord dostaneme zvýšením druhého tónu akordu o půl tónu. Čistou kvintu tedy nahradíme kvintou zvětšenou (= 8 půltónů = 8 pražců).
Posununeme tedy druhý prst v držení power akordu o jeden pražec blíže ke kobylce kytary:

e---------------------------------------p+3-------
H-------------------------------p+4------p--------
G----------------------p+3------p----------------
D--------------p+3------p------------------------
A------p+3------p--------------------------------
E-------p-----------------------------------------


Jako příklad uvádím zmenšený, "normální" a zvětšený power akord C5:

e----------------------------------------
H----------------------------------------
G----------------------------------------
D--------4----------5----------6--------
A--------3----------3----------3--------
E----------------------------------------
akord..C5-........C5........C5+
tón...C+Gb......C+G.......C+G#


V případě akordu C5- označuji druhý tón Gb (Ges), protože jde o snížení tónu G o jeden půltón a vyjadřuje se tím zmenšení intervalu. Enharmonicky se ale jedná také o tón F# (Fis).

A na závěr alterované power akordy s použitím prázných (otevřených) strun:

e---------------------------------1---------------------------3-------
H-------------------------2------0---------------------4-----0-------
G-------------------1-----0----------------------3-----0-------------
D-------------1-----0----------------------3-----0-------------------
A-------1-----0----------------------3-----0-------------------------
E-------0-----------------------------0-------------------------------
akord.E5-..A5-..D5-..G5-..H5-..E5+..A5+..D5+..G5+..H5+

Odpovědět