Power akord - 4.část: obměna power akordů

Riffy, sóla, techniky, cvičení... aneb praxe všeobecně
Odpovědět
Milan
Příspěvky: 372
Registrován: 04 led 2011 09:11

Power akord - 4.část: obměna power akordů

Příspěvek od Milan » 18 bře 2011 09:57

1. Co je to obměna power akordu?
Obměnou power akordů se rozumí přechod od dvojhmatů (klasický power akord dvěma prsty) na trojhmaty (nebo vícehmaty).
Přidáním tónu (tónů) do základního power akordu získáme akord s ještě větší zvukovou hutností. Přidané tóny jsou oktávami tónů, které jsou již obsaženy v původním power akordu. Pořád se tedy jedná o power akordy, protože nepřidáváme žádný jiný nový tón, ale pouze jejich oktávy.

2. Přidaná oktáva základního tónu akordu
Toto je nejčastější obměna. V minulé části jsem popsal, kde najdeme oktávu tónu na hmatníku:
Oktávu každého tónu najdeme lehce - je o dvě struny a o dva pražce výše.

e-----------------------------
H-----------------------------
G-----------------------------
D-----------------5----------- oktáva tónu G
A-----------------------------
E------3---------------------- tón G

Zvídaví už jistě pochopili nebo vědí, že stačí držet power akord a jen posunout druhý prst na vyšší strunu. Z power akordu se tak rázem stane souzvuk v intervalu oktávy.
Jako příklad uvedu akord A5:
e------------------------------------------------------
H------------------------------------------------------
G------------------------------------------------------
D-----------------------7--------------7---------------oktáva zákl. tónu akordu
A-------7------------------------------7---------------tón E
E-------5------------------------------5---------------tón A
akord.A5.......................A5 s oktávou A1
tóny..A+E........oktáva A1.....A+E+A1


Musím upozornit, že nepoužívám normou stanovené značení tónů, strun a oktáv. Je to zjednodušené a pro pochopení principu power akordů je to myslím dostačující a pochopitelné.

Opět uvedu vzorec pro nalezení power akordů s přidanou oktávou základního tónu akordu (p = číslo pražce):

e----------------------------------------p+3-----
H----------------------------p+3-------p+3-----
G----------------p+2--------p+2--------p-------
D----p+2--------P+2---------p------------------
A----p+2---------p------------------------------
E-----p------------------------------------------

Opět zde musím respektovat interval mezi strunami G-H a proto jsou oktávy na strunách H+e posunuty ještě o jeden pražec ke kobylce.
Osobně používám tento prstoklad:
Ukazováček - základní tón akordu
Prsteníček - druhý tón akordu
Malíček - oktáva
V některých případech (když základní tón akordu není na struně D) lze použít pouze ukazováček a prsteníček, který mačká společně druhý tón s oktávou na stejném pražci.

Všechny akordy s přidanou oktávou základního tónu s použitím prázdných strun:
e---------------------------------3-----
H------------------------3-------3-----
G----------------2-------2-------0-----
D--------2-------2-------0-------------
A--------2-------0---------------------
E--------0-----------------------------
akord..E5......A5.....D5.....G5


3. Přidaná oktáva druhého tónu power akordu
Méně častá obměna power akordů, ale pro úplnost ji zde uvedu.
Do power akordu můžeme také přidat pouze oktávu druhého tónu akordu. Tato oktáva se přidává směrem dolů. Oktávu směrem dolů najdu podle stejného pravidla jako oktávu směrem nahoru, ale samozřejmě opačným směrem.

Opět příklad na akordu C5:
e--------------------------------------------------------
H--------------------------------------------------------
G--------------------------------------------------------
D-------------5----------------------------5-------------tón G
A-------------3----------------------------3-------------tón C
E---------------------------3--------------3-------------oktáva tónu G(=G-1)
akord.......C5........oktáva G......C5 s přidanou oktávou G-1
tóny........(C+G)........(G-1)........(G-1+C+G)


V tomto případě tedy základním tónem akordu je oktáva G a původní základní tón akordu (C) se nyní nachází uprostřed.

Na závěr uvedu alespoň všechny power akordy s přidanou oktávou druhého tónu s použitím prázdných strun:
e---- ------------------------------3----------
H----- -------------------3--------1----------
G---- -----------2--------0--------0----------
D---- ---2-------0--------0------------------
A---- ---0-------0----------------------------
E---- ---0------------------------------------
akord..A5......D5......G5......C5


V příští části bych u oktáv ještě zůstal a napsal bych něco o přidání obou výše zmíněných oktáv do power akordu a něco malinko o oktávové hře.

Odpovědět