Power akord - 3.část: obrat power akordů

Riffy, sóla, techniky, cvičení... aneb praxe všeobecně
Odpovědět
Milan
Příspěvky: 372
Registrován: 04 led 2011 09:11

Power akord - 3.část: obrat power akordů

Příspěvek od Milan » 17 bře 2011 10:36

1. Co to je obrácený akord?
Obrácený akord vznikne přeskupením tónů v akordu podle tohoto pravidla:
Nejhlubší (základní) tón akordu přesuneme o oktávu výš. Druhý nejvyšší tón akordu se potom dostane na jeho místo a stane se nejhlubším tónem akordu. A takhle můžeme pokračovat pořád dokola a dokola...
Myslím, že nejlepší bude názorný příklad, třeba na akordu Cdur.

Cdur..........................kvintakord............tóny C-E-G...................označení C
první obrat Cdur............sextakord.............tóny E-G-C...................označení C/E
druhý obrat Cdur............kvartsextakord......tóny G-C-E...................označení C/G
třetí obrat Cdur je zbytečný, dostali jsme se zpět na Cdur (C-E-G)

Akordová značka obrácených akordů se zapisuje jako zlomek. V čitateli je akordová značka původního neobráceného akordu. Ve jmenovateli je označení nejnižšího tónu obráceného akordu.

2. Obrat power akordu
Tak, jako obracíme klasické akordy, tak můžeme obracet power akordy.
Obrácené power akordy sice nezní tak hutně jako neobrácené power akordy, ale hudbu to ozvláštňuje a působí to novým neotřelým způsobem.
Abychom mohli najít obrat power akordu, musíme tedy první nejhlubší tón power akordu přesunout o oktávu výše.
Oktávu každého tónu najdeme lehce - je o dvě struny a o dva pražce výše.

e-----------------------------
H-----------------------------
G-----------------------------
D-----------------5----------- oktáva tónu G
A-----------------------------
E------3---------------------- tón G

Zvídaví už jistě pochopili nebo vědí, že stačí držet power akord a jen posunout druhý prst na vyšší strunu. Z power akordu se tak rázem stane souzvuk v intervalu oktávy. No může být něco jednoduššího? :D

Zde je uveden příklad akordu G5 a jeho obratu:

e-----------------------------------
H-----------------------------------
G-----------------------------------
D---------------------------5-------
A---------5-----------------5-------
E---------3-------------------------
akord...G5............obrat G5/D
tóny....G+D..............D+G


Opět tedy můžeme vytvořit vzorec pro určení a nalezení obrácených power akordů (p = číslo jakéhokoli pražce):

e--------------------------------------p-------
H----------------------------p+1-----p-------
G---------------------p-------p---------------
D-------------p-------p-----------------------
A-----p-------p-------------------------------
E-----p---------------------------------------

Opět je nutné brát na zřetel jiný interval mezi strunami G a H

3. Obraty power akordů s použitím prázdných strun
Hraní obrácených power akordů na prázdných strunách je velice jednoduché. Hmatníková ruka odpočívá a do hry se zapojí pouze v případě akordu C5/G a to ještě pouze jedním prstem. Jaký prst použít, tak to vyplyne ze situace - jaký akord předcházel, jaký následuje, jak je to pohodlné...

e---------------------------------------------------------0------
H---------------------------------------------1----------0-------
G----------------------------------0----------0------------------
D-----------------------0----------0-----------------------------
A------------0----------0----------------------------------------
E------------0---------------------------------------------------
Akord....A5/E......D5/A.....G5/D.....C5/G......E5/H
Tóny......E+A........A+D......D+G.......G+C.......H+E


4. Obraty power akordů na celém hmatníku
Hraní těchto obrácených power akordů v rámci celého hmatníku je také snadné. Dvě sousední struny mačká jeden prst na stejném pražci. Opět brát zřetel na dvojici strun G-H, tam se zapojí dva sousední prsty.
Pro příklad jsem si vybral akord C5 a jeho obrat C5/G ve všech polohách do 13.pražce:

e-------------------------------------------------------------------------8-------
H------------------------------------------------------13-------8-------8-------
G-----------------------------------5-------12-------12-------5----------------
D----------------10-------5-------5-------10----------------------------------
A------10-------10-------3----------------------------------------------------
E-------8----------------------------------------------------------------------
Akord.C5......C5/G....C5....C5/G....C5......C5/G.....C5.....C5/G


Příště bych napsal o obměnách power akordů.

Na závěr jsou tu opět výuková videa. Vybral jsem nejprofláknutější fláky, které se hrají převážně obrácenými power akordy:
1.video: Green Day - American Idiot
2.a 3.video: Deep Purple - Smoke On The Water
4.video: Led Zeppelin - Whole Lotta Love
5.video: Black Sabbath - Iron Man


[youtube]http://www.youtube.com/watch?v=7YbO7kFr ... ure=relmfu[/youtube]
[youtube]http://www.youtube.com/watch?v=-rP-9KCt ... ure=fvwrel[/youtube] [youtube]http://www.youtube.com/watch?v=isq8ZQSg ... er&list=UL[/youtube]

Odpovědět