Power akord - 10.část: durový dvojhmat

Riffy, sóla, techniky, cvičení... aneb praxe všeobecně
Odpovědět
Milan
Příspěvky: 372
Registrován: 04 led 2011 09:11

Power akord - 10.část: durový dvojhmat

Příspěvek od Milan » 31 bře 2011 09:42

Durový charakter power akordu (durový dvojhmat)
Při durovém dvojhmatu nebudeme hrát druhý tón power akordu kvintu, ale nahradíme ho velkou (durovou) tercií. V 7. části jsem popsal interval velké tercie a tak jen zopakuji, že je to interval 4. půltónů = 4 pražce kytary.

Interval velké tercie tedy najdeme na sousedních strunách takto (opět "p" značí číslo pražce):
Úmyslně dávám druhý tón do závorky, abych zdůraznil znaménko "mínus" v závorce.
e------------------------------------------(p-1)------
H-----------------------------------p--------p--------
G------------------------(p-1)------p-----------------
D---------------(p-1)------p--------------------------
A------(p-1)------p-----------------------------------
E--------p--------------------------------------------


Pokud tedy základní tón durového dvojhmatu je na struně G, potom druhý tón (velká tercie) leží na stejném pražci struny H.
To ostatně vychází z klasického ladění strun na kytaře. Struny G a H jsou vůči sobě laděny v intervalu velká tercie = 4 půltóny = 4 pražce. A jen připomínám - ostatní sousední dvojice strun jsou mezi sebou v intervalu kvarty = 5 půltónů = 5 pražců (Hasičská siréna nebo volání HÓ-ŘÍ je tzv. hasičská kvarta).

Osobně jsem se nikde nesetkal s akordovou značkou mollových a durových power akordů (asi proto že to akordy nejsou). A tak pouze pro účely tohoto povídání si dovolím použít tento hybrid (znalci hudby ať mne prosím nekamenují :) ):
X3 a X3m
X = základní tón power akordu
3 = interval tercie
m = malá mollová tercie
bez přípony "m" = velká durová tercie

Jako příklad bych uvedl power akord A5 (základní + durový dvojhmat):

e--------------------------------------------
H--------------------------------------------
G--------------------------------------------
D--------------------------------------------
A--------------7-----------------4-----------
E--------------5-----------------5-----------
akord........A5...............A3
tóny.........A+E..............A+C#
interval..čistá kvinta......velká tercie


S použitím prázdných strun mohu zahrát tyto durové intervaly:

e------------------------------------------------------0--------
H------------------------------------------0----------1--------
G-------------------------------0----------0-------------------
D--------------------0----------1------------------------------
A---------0----------1-----------------------------------------
E---------1----------------------------------------------------
akord..F3........A#3........D#3.......G3........C3
tóny....F+A......A#+D......D#+G.....G+H......C+e


Durový interval velké tercie je z psychologického hlediska důrazný, optimistický, tvrdý a zpěvný. Má pronikavou expresivní povahu.

Odpovědět