Nirvana Smells like teen spirit main riff + solo

Riffy, sóla, techniky, cvičení... aneb praxe všeobecně
Odpovědět
letomas
Příspěvky: 7
Registrován: 23 lis 2010 17:47

Nirvana Smells like teen spirit main riff + solo

Příspěvek od letomas » 08 črc 2011 16:34

Zde zasilam original Smells like teen spirit v power akordech.
Main riff

Kód: Vybrat vše

F5                  B5          G#5             
|-------x-x-x-x----------------x-x-x-x-------------------|
|-------x-x-x-x----------------x-x-x-x-------------------|  
|-------x-x-x-x----------------x-x-x-x-------------------| 
|-------x-x-x-x--3-3-3---------x-x-x-x--7-7-7-7----------|        
|3-3-3--x-x-x-x--1-1-1--7-7-7--x-x-x-x--4-4-4-4----------|
|1-1-1--x-x-x-x--x-x-x--4-4-4--x-x-x-x--x-x-x-x----------|
Solo

Kód: Vybrat vše

 
                                      Tuto cast jen kdyz hrajete podruhe (4x).         
|----------------------------------- |------------------|
|----6------------------------------ |------------------|
|5-8-----8-8^-6s5-6-5----------------|------------------|2x
|------6---------------8-6-8-8^-6-5--|6-5-6-5-6-5-6-5s3-|
|----------------------------------- |------------------|
|----------------------------------- |------------------|
Jakekoli dotazy a pripominky mi zasilejte na email: letomas@email.cz

Odpovědět