Klasika: Kabát - Ďábel a syn

Riffy, sóla, techniky, cvičení... aneb praxe všeobecně
Odpovědět
HellRamm
Příspěvky: 2
Registrován: 22 lis 2009 22:47

Klasika: Kabát - Ďábel a syn

Příspěvek od HellRamm » 22 lis 2009 22:50

Kód: Vybrat vše

Intro:

ˇˇˇˇˇˇ

 Dmi



 e------------1---------|------------0---------|-----------3---------|

 H---------------3------|---------------3------|--------------3------|

 G-------2----------2---|-------2----------2---|------2----------2---|

 D---0~----0------------|---0~----0------------|---0~---0------------|

 A----------------------|----------------------|---------------------|

 E----------------------|----------------------|---------------------|



 e-----------1----------|

 H----------------------|

 G------2---------------| 

 D---0----0-------------|

 A------------0-2~------|

 E----------------------|


Main song:

ˇˇˇˇˇˇˇˇˇˇ

 Dmi			             C			             Ami

 e------------1---------|----------------------|----------------------|

 H---------------3------|--------------1-------|--------------1-------|

 G-------2----------2---|-----------------0----|-----------------2----|

 D---0~----0------------|--------2-----------2-|--------2-----------2-|

 A----------------------|----3~----3-----------|----0~----0-----------|

 E----------------------|----------------------|----------------------|



 G

 e-------------3--------|

 H----------------3-----|

 G-------------------0--| 

 D----------------------|

 A--------2-------------|

 E----3~----3-----------|


Solo: (I can't tab it, but here is my simply verse - it's sounds good)

ˇˇˇˇˇ

 e-----------------------------|---------------------------|

 H-----------------------------|---------------------------|

 G-----2-------2--0------------|-----2----2--0-------------|

 D---0---0-----------3--2--0~--|---0---0--------3--2~/5-5--|

 A-----------------------------|---------------------------|

 E-----------------------------|---------------------------|



 e-----------------------------|------------------------------------|

 H-----------------------------|------------------------------------|

 G-----2-------2--0------------|-----2----2--0----------------------|

 D---0---0-----------3--2--0~--|---0---0--------3--2~/5-5--9~/12----|

 A-----------------------------|------------------------------------|

 E-----------------------------|------------------------------------|





Outro:

ˇˇˇˇˇˇ

   Dmi

 e-----1~----------------------------------|

 H-----3~----------------------------------|

 G-----2~----------------------------------| 

 D--------------------0~------------0~--...|

 A-------------0--2~--------0--2~-------...|

 E--------------------------------------...|  to fade out


Dmi                C
Sedím a koukám jak zvrácenej podzim
Ami                   G
Stromům svlíká jejich šat
Dmi                C
Poslouchám ptáky a jenom tak kouřím
Ami                G
Malinko chce se mi spát
Dmi               C
Padá mi hlava pak cejtím jak někdo
Ami              G
lehce mě za ruku vzal
Dmi                 C
Blázen či voják jak maškara divná
    Ami
Tam stál
             Dmi
Já pozval ho dál


Měl špinavej kabát a v ruce flétnu
Oči jak z mrtvejch by vstal
Na botách bahno snad celýho světa
Tuhletu píseň mi hrál

Tu píseň co zpívám a vůbec vám nevím
Kde na ni akordy vzal
Jak jsem tam seděl a koukal a kouřil
To já
Teprv ji psal


Povídá hochu vracím se z flámu
Hráli jsme karty se zdá
Partii pokera o budoucí vládu
Dík bohu vyhrál jsem já

Já měl z pekla štěstí a nebo pár trumfů
V rukávu podvod - já vím
Chcete mě soudit tak dejte mě na kříž
Jsem váš
Ďábel a syn


Pak pomalu mluvil a ničil mě silou
Co od věků v sobě už má
Drtil mě pravdou a pouštěl mi žilou
A na závěr jen povídá

Bůh stvořil lásku a žal taky bolest
A já jenom ubohej chtíč
Fandím vám lidem nevím proč nemáš
Mě rád
Já poslal ho pryč


Sedím a koukám jak zvrácenej podzim
Stromům svlíká jejich šat
Přemejšlím o tom co s náma bude
A malinko chce se mi spát

Padá mi hlava pak cejtím jak někdo
Lehce mě za ruku vzal
Blázen či voják jak maškara divná
Tam stál
Tak pozvem ho dál
Naposledy upravil(a) HellRamm dne 24 lis 2009 21:14, celkem upraveno 3 x.

kiko
Příspěvky: 110
Registrován: 22 čer 2009 16:47

Re: Klasika: Kabát - Ďábel a syn

Příspěvek od kiko » 23 lis 2009 15:57

Paráda, dík :nice: A nevieš poradiť aj rytmus na tie slohy prosím ťa?

HellRamm
Příspěvky: 2
Registrován: 22 lis 2009 22:47

Re: Klasika: Kabát - Ďábel a syn

Příspěvek od HellRamm » 24 lis 2009 20:56

Tak. Provedl jsem malou upravu teď by to mělo bejt jasnější... :D :nice:

kiko
Příspěvky: 110
Registrován: 22 čer 2009 16:47

Re: Klasika: Kabát - Ďábel a syn

Příspěvek od kiko » 24 lis 2009 21:05

Predtým to bolo celkom zrozumiteľné, ale tak jak je libo, to je jedno :mrgreen:
Ma skôr zaujímal rytmus... v^v^ kedy hore kedy dole po strunách a tak.. ešte som to neskúšal možno na to prídem aj sám ale tak.. :poklona:

Odpovědět