Klasika: Hradní tanec

Riffy, sóla, techniky, cvičení... aneb praxe všeobecně
Odpovědět
Tobi
Příspěvky: 361
Registrován: 06 dub 2009 16:08

Klasika: Hradní tanec

Příspěvek od Tobi » 05 kvě 2009 21:07

taby:

Kód: Vybrat vše

2x
C C C C
-------------------------------------------------------------------
---0-1-0--3-1-0------0-1-3---0--0-----0-1-0--3-1-0----0-1-0--------
-2--------------2--2----------------2--------------2--------0-2--2-
-------------------------------------------------------------------
-0--------0--------0---------0--0---0--------0----------------0--0-
-------------------------------------------------------------------


2x
C C C C C C C C
-0-0---0------------------------0-0---0-----------------------
---------3-3-3--1-1-3-1--0--0-----------3-3-3--1-1-0----------
---------0------------------------------0------------0--2--2--
--------------------------------------------------------------
-3---3----------0---0-----------3---3----------0--------0-----
-------------------------0--0----------------------0----------

1x
C C
-0---0---0--------0---0----0------0---0---0--------0---0----0-----
---0-1-0-3-1-0------0-1-3--0--0-----0-1-0-3-1-0----0-1-0----------
-2-------------2--2---------------2-------------2--------0--2--2--
------------------------------------------------------------------
------------------------------------------------------------------
------------------------------------------------------------------

1x
C C C C C C C C
-0-0---0------------------------0-0---0-----------------------
---------3-3-3--1-1-3-1--0--0-----------3-3-3--1-1-0----------
---------0------------------------------0------------0--2--2--
--------------------------------------------------------------
-3---3----------0---0-----------3---3----------0--------0-----
-------------------------0--0----------------------0----------
youtube:
[youtube]http://www.youtube.com/watch?v=RPq9NFkReV4&NR=1[/youtube]

Alcakv
Příspěvky: 26
Registrován: 02 led 2010 12:37

Re: Klasika: Hradní tanec

Příspěvek od Alcakv » 01 črc 2010 21:53

tak se po delší době jdu opět na něco zeptat....začínám zkoušet vybrnkávání,moc se mi líbí tento hradní tanec, hlavně ty taby super popsaný,jen mám problém s tím,že některá čísla jsou nad sebou a nevím , které se hraje dřív, či spolu ? Myslím tím hlavně pátou strunu kde je 0 a na druhé či třetí struně je většinou také číslo,to se hraje spolu, nebo něco dřív ? Nestíhám to z videa odkoukat. A také co znamenají na začátku ty C ? Jak je tam 2x cccc atd .......děkuji za odpověď a omlouvám se pokud se ptám divně...a je to již někd e vysvětlené, díky moc

Janny
Příspěvky: 289
Registrován: 25 čer 2009 18:47

Re: Klasika: Hradní tanec

Příspěvek od Janny » 01 črc 2010 21:57

To co je nad sebou se hraje spolu :) A co jsou ty C teďka nemám tušení, Tobi to pak vysvětlí :) snad :)

Alcakv
Příspěvky: 26
Registrován: 02 led 2010 12:37

Re: Klasika: Hradní tanec

Příspěvek od Alcakv » 02 črc 2010 12:50

děkuji moc :potlesk:

Tobi
Příspěvky: 361
Registrován: 06 dub 2009 16:08

Re: Klasika: Hradní tanec

Příspěvek od Tobi » 02 črc 2010 23:21

céčka se nepovedla :( měla značit celou dobu, ale nějak nevyšlo formátování, takže je možno je.. ignorovat :D a načasování naposlouchat :)

Dejvis
Příspěvky: 68
Registrován: 30 pro 2010 15:46

Re: Klasika: Hradní tanec

Příspěvek od Dejvis » 15 úno 2011 19:54

Takhle hraju já ten Hradní Tanec jak jsem psal vedle... :D Je to zkrácená verze... :)
Taky to tempo nic moc... :(

Tobi
Příspěvky: 361
Registrován: 06 dub 2009 16:08

Re: Klasika: Hradní tanec

Příspěvek od Tobi » 16 úno 2011 22:44

tempo je imho osobni zalezitost. nemyslim si, ze je u tebe spatne ;)

Odpovědět