Kamelot - Zachraňte koně

Riffy, sóla, techniky, cvičení... aneb praxe všeobecně
Odpovědět
Smajda
Příspěvky: 409
Registrován: 06 dub 2009 18:44

Kamelot - Zachraňte koně

Příspěvek od Smajda » 14 úno 2010 20:46

Zdravím :)
přicházím za vámi s prosbou, jestli někdo nemáte taby na to intro.
díky moc :thx:
Takovej malilinkatej kytarista Šmajdíček :)

Podpoře prosím fórum přidáním banneru na váš web.

Dejw

Re: Kamelot - Zachraňte koně

Příspěvek od Dejw » 15 srp 2010 22:39

Kód: Vybrat vše

E ----------------------------------------------------
G -7-7/8-7/8-7/8-----7-7/8-7/8-7/8-------7-7/8-7/8-7/8-----
B -------------------------------------------------------5---    2x
D -----------------------------------------------------------
A -----------------------------------------------------------
E -----------------------------------------------------------

E ---------------------------------------------------------------------------------------
G -8-8/10-8/10-8/10----8-8/10-8/10-8/10-----8-8/10-8/10-8/10--------------------------
B ---------------------------------------------------------------5---5-5-7-5-4----------
D ------------------------------------------------------------------------------5-5-7-4-
A ---------------------------------------------------------------------------------------
E ---------------------------------------- ----------------------------------------------
Kameloti - vzpomínka na DDM a počátky hraní :-) Pokusil jsem se to natabovat to intro, celkem to tak zní - kdyžtak se omlouvám za chybičky.

7/8 a 8/10 - slide - snad znáš - kdyžtak pak vysvětlím :-D
hraj to střídavě - nahoru a dolů

JJ, máš pravdu :-D tak příště už to bud správně
Naposledy upravil(a) Dejw dne 16 srp 2010 15:54, celkem upraveno 3 x.

Tobi
Příspěvky: 361
Registrován: 06 dub 2009 16:08

Re: Kamelot - Zachraňte koně

Příspěvek od Tobi » 15 srp 2010 22:54

Quote Dejw:

Kód: Vybrat vše

E -------------------------------------------------------
G -7-7/8-7/8-7/8-----7-7/8-7/8-7/8-------7-7/8-7/8-----
B ---------------------------------------------------5---    2x
D -------------------------------------------------------
A -------------------------------------------------------
E -------------------------------------------------------

E ---------------------------------------------------------------------------------------
G -8-8/10-8/10-8/10----8-8/10-8/10-8/10-----8-8/10-8/10-8/10--------------------------
B ---------------------------------------------------------------5---5-5-7-5-4----------
D ------------------------------------------------------------------------------5-5-7-4-
A ---------------------------------------------------------------------------------------
E ---------------------------------------- ----------------------------------------------
v tom code /code to vypada líp ;)

Odpovědět