"intro" od Tří křížů

Riffy, sóla, techniky, cvičení... aneb praxe všeobecně
Odpovědět
CreAtive_34
Příspěvky: 88
Registrován: 24 lis 2009 20:16

"intro" od Tří křížů

Příspěvek od CreAtive_34 » 04 dub 2011 11:14

Zdravím :)
dokázal by mi tu někdo šikovný a ochotný napsat nebo sehnat tab k intru od písničky Tři kříže?
Tak jak ho hrajou např. tady
[youtube]http://www.youtube.com/watch?v=aAmZK6OW ... re=related[/youtube]

Byl bychj moc vděčný, nějak to nikde nemůžu najít a odposlechnout taky ne.
:thx:

Tobi
Příspěvky: 361
Registrován: 06 dub 2009 16:08

Re: "intro" od Tří křížů

Příspěvek od Tobi » 09 dub 2011 01:57

zakladni melodie by mohla byt

Kód: Vybrat vše

------------------------------------
------------------------------------
------------------------------------
-0-0-3-3-2-3-2-------2-3-2-0-2---0--
---------------3-0-3-----------3----
------------------------------------

Amalthea
Příspěvky: 2
Registrován: 31 srp 2011 22:12

Re: "intro" od Tří křížů

Příspěvek od Amalthea » 31 srp 2011 22:22

Super, taky se mi hodí :)

Kony12
Příspěvky: 1
Registrován: 20 čer 2014 10:21

Re: "intro" od Tří křížů

Příspěvek od Kony12 » 20 čer 2014 10:39

Verze, kterou hrají Páni muzikanti je o oktávu výše. Ukázku přikládám zde. Hodně zdaru ;)

e-----------1-1-0-1-0-------0-1-0---0----------
h------3-3-------------1---1-------3---1-3-----
g-------------------------2------------------------
d---------------------------------------------------
a---------------------------------------------------
e---------------------------------------------------

Odpovědět