Greenday - American Idiot

Riffy, sóla, techniky, cvičení... aneb praxe všeobecně
Odpovědět
SpeedEX
Příspěvky: 74
Registrován: 04 led 2010 20:37

Greenday - American Idiot

Příspěvek od SpeedEX » 31 říj 2010 10:46

Není zas tak těžkej.

Kód: Vybrat vše

Main Riff

|----------------------------|
|----------------------------|
|---------6-6-6-------6------|
|--6-6-6--6-6-6--4-4--6-6-4--|
|--6-6-6--4-4-4--4-4--4-6-4--|
|--4-4-4---------2-2----4-2--|

SpeedEX
Příspěvky: 74
Registrován: 04 led 2010 20:37

Re: Greenday - American Idiot

Příspěvek od SpeedEX » 10 bře 2011 22:51

Ještě refrén, kde jsou 3 akordy a máte to komplet.

Kód: Vybrat vše

|-----------------------------------------------|
|-----------------------------------------------|
|-----66666666------------88888888--------------|
|-----66666666--66666666--88888888--66666666----|
|-----44444444--66666666--66666666--66666666----|
|---------------44444444------------44444444----|

|-----------------------------------------------|
|-----------------------------------------------|
|-----66666666------------88888888--------------|
|-----66666666--66666666--88888888--------------|
|-----44444444--66666666--66666666--------------|
|---------------44444444------------------------|

Milan
Příspěvky: 372
Registrován: 04 led 2011 09:11

Re: Greenday - American Idiot

Příspěvek od Milan » 11 bře 2011 07:27

SpeedEX - Koukám, že jsem stejná krevní skupina jako ty :)
Opět přikládám video mého oblíbeného učitele Martyho Schwartze. Učí jednoduše, rychle, přehledně.

SpeedEX
Příspěvky: 74
Registrován: 04 led 2010 20:37

Re: Greenday - American Idiot

Příspěvek od SpeedEX » 11 bře 2011 07:38

Jojo :) akorát to video máš holiday. Dám sem to solo.. hodně lehky :-D

Milan
Příspěvky: 372
Registrován: 04 led 2011 09:11

Re: Greenday - American Idiot

Příspěvek od Milan » 11 bře 2011 10:22

Sorry :oops: , popletl jsem to.
My si ale rozumíme a vzhledem k malé návštěvnosti to snad není tak velká dezinformace kytarového světa :lol:

Odpovědět