část sola

Riffy, sóla, techniky, cvičení... aneb praxe všeobecně
Odpovědět
Klemsic
Příspěvky: 2
Registrován: 03 srp 2012 18:58

část sola

Příspěvek od Klemsic » 03 srp 2012 19:07

Čau.
Potřeboval bych poradit s částí sola, která je v této písničce v čase 1:31 - 1:33 (Stačí mi znát styl hraní tady tý houpaví časti..) Díky ;-)

http://www.youtube.com/watch?v=u-3m-2gmba0

Dejvis
Příspěvky: 68
Registrován: 30 pro 2010 15:46

Re: část sola

Příspěvek od Dejvis » 04 srp 2012 15:07

Ahoj,
to je podle mě klasickej lick Chucka Berryho! :twisted:

Jak to jen popsat, asi to zkusím v tabech... :)

Kód: Vybrat vše

S vytahováním strun takto...

e|------------------5~~--|
H|------5-----5-----5~~--|
G|--7b9---7b9---7b9------|
D|-----------------------|
A|-----------------------|
E|-----------------------|

A nebo bez bendů takto...

e|------------------5~~--|
H|------5-----5-----5~~--|
G|--7s9---7s9---7s9------|
D|-----------------------|
A|-----------------------|
E|-----------------------|
S tím, že po každém bendu / slejdu je struna G utlumená a někdy stačí jen bend o půl tónu a nebo vůbec... :) Jinak ty čísla pražců jsou jen pro info, samozřejmě se to mění podle tóniny, tohle je pro E-moll pentatoniku, kterou jako jedinou zatím umím. :lol:

Klemsic
Příspěvky: 2
Registrován: 03 srp 2012 18:58

Re: část sola

Příspěvek od Klemsic » 04 srp 2012 21:19

Skvělí, ;) díky moc.. :thx:

Odpovědět