^ - brush up????

Riffy, sóla, techniky, cvičení... aneb praxe všeobecně
Odpovědět
sajlo_37
Příspěvky: 26
Registrován: 21 úno 2011 11:35

^ - brush up????

Příspěvek od sajlo_37 » 20 bře 2011 09:51

pls mohly by ste mi poradit ako zahrat to ^ - brush up?

Tobi
Příspěvky: 361
Registrován: 06 dub 2009 16:08

Re: ^ - brush up????

Příspěvek od Tobi » 25 bře 2011 00:55

hmm ja to bohuzel nevim. jestli na to nekde narazim, urcite dam vedet..

Milan
Příspěvky: 372
Registrován: 04 led 2011 09:11

Re: ^ - brush up????

Příspěvek od Milan » 25 bře 2011 08:24

Tak já jsem narazil na ^-brush up a v-brush down.
Nebude to náhodou tohle "zametání" strun?

sajlo_37
Příspěvky: 26
Registrován: 21 úno 2011 11:35

Re: ^ - brush up????

Příspěvek od sajlo_37 » 27 bře 2011 08:56

juuj asi nie lebo ja som to videl v taboch ---

Kód: Vybrat vše

Eb-7-----------7^0---------|---------7---8---7^8\5---7-5-/0------| 
Bb---------0-------0-------|---------0---0-----------0-------5---| 
Gb-----0---------------0---|-----0-------------------------------| 
Db-------------------------|-------------------------------------| 
Ab-------------------------|-------------------------------------| 
Eb-0-----------------------|-0-----------------------------------| 
to su taby na nothing else matters

Emiel
Příspěvky: 29
Registrován: 19 bře 2011 16:04

Re: ^ - brush up????

Příspěvek od Emiel » 27 bře 2011 12:08

sajlo_37 píše:juuj asi nie lebo ja som to videl v taboch ---

Kód: Vybrat vše

Eb-7-----------7^0---------|---------7---8---7^8\5---7-5-/0------| 
Bb---------0-------0-------|---------0---0-----------0-------5---| 
Gb-----0---------------0---|-----0-------------------------------| 
Db-------------------------|-------------------------------------| 
Ab-------------------------|-------------------------------------| 
Eb-0-----------------------|-0-----------------------------------| 
to su taby na nothing else matters
Tam máš akorát příklep - 7^8 a pak sjetí po strunách...Celé to vypadá takhle:

Vydrnkáváš normálně u 7^0 - zahraješ ten ton a pustíš tu strunu, aby jakoby dohrála sama, pak pokračuješ u 7^8 pro změnu zahraješ 7 a pak chytneš druhým prstem 8 - tedy nedrnkneš znovu, ale ten druhý ton zahraješ na to samé drnknutí. a pak 8/5 - to jen zahraješ 8 a sjedeš po strunách na 5 a u 5/0 to samé zahraješ, sjedeš na jedna a pustíš.

Doufám, že jsem to řekl tak nějak srozumitelně a správně. Jsem úplný záčátečník, ale doufám, že tohle pomohlo.
Ono to nějak půjde.

sajlo_37
Příspěvky: 26
Registrován: 21 úno 2011 11:35

Re: ^ - brush up????

Příspěvek od sajlo_37 » 27 bře 2011 13:04

vdaka

Milan
Příspěvky: 372
Registrován: 04 led 2011 09:11

Re: ^ - brush up????

Příspěvek od Milan » 27 bře 2011 17:07

juuj asi nie lebo ja som to videl v taboch ---

Kód:
Eb-7-----------7^0---------|---------7---8---7^8\5---7-5-/0------|
Bb---------0-------0-------|---------0---0-----------0-------5---|
Gb-----0---------------0---|-----0-------------------------------|
Db-------------------------|-------------------------------------|
Ab-------------------------|-------------------------------------|
Eb-0-----------------------|-0-----------------------------------|


to su taby na nothing else matters
Sajlo_37 - promiň že jsem tě uvedl v omyl, ale poprvé jsi se ptal na něco úplně jiného :)
Kde jsi z té tabulatury vyčetl, že je tam brush up?????
Ta "stříška" mezi notami neznamená směr úhozu nebo brush up, ale má to být správně oblouček nad notami. Když si stáhneš jinou kvalitnější tabulaturu (http://www.gprotab.net/search_tabs.php? ... %20Matters), tak tam ten oblouček najdeš. A znamená to, že všechny noty, které jsou mezi tím obloučkem, respektive pod obloučkem, se hrají legato neboli vázaně bez pauz a přerušení. Třeba hráč na dechový nástroj se nesmí mezi těmito notami nadechnout a houslista nesmí změnit směr tahu smyčce. Kytaristi většinou hrají skluzem, příklepem nebo odtrhem. Ale pozor! Nedovedu si představit, jak zahrát skluzem legato dvou tónů na sousedních strunách. :D
Je jedno, jakou technikou se legato hraje. Tóny musí znít za sebou, bez pauz a o to tady jde. Skoro ty tóny jakoby přeznívají. Stačí zkoordinovat pravou ruku s levou a ono to půjde :D
Taky jsem úplný začátečník a tak čekám na další názory :)

sajlo_37
Příspěvky: 26
Registrován: 21 úno 2011 11:35

Re: ^ - brush up????

Příspěvek od sajlo_37 » 27 bře 2011 19:01

prepac ze som to zle nazval ale niekde tu na fore som nasiel take pomenovanie pre to. niekde vo vysvetlivkach na taby..

Milan
Příspěvky: 372
Registrován: 04 led 2011 09:11

Re: ^ - brush up????

Příspěvek od Milan » 27 bře 2011 19:31

sajlo_37 -
Nic se nestalo, hlavně když se domluvíme :D
Já taky nemám patent na rozum a moje příspěvky jsou třeba "táranie somarin" :D

Odpovědět