Bonsoir Mademoiselle Paris

Riffy, sóla, techniky, cvičení... aneb praxe všeobecně
Odpovědět
Dejvis
Příspěvky: 68
Registrován: 30 pro 2010 15:46

Bonsoir Mademoiselle Paris

Příspěvek od Dejvis » 10 úno 2011 00:10

Zdravím, mám tu jednu novou brnkačku, ale nevím kam to dát, protože je to spíš sólíčko než klasické vybrnkávání... :) Je to Bonsoir Mademoiselle Paris od Olympiců, autor jsem částečně já (dali jsme to tak nějak dokupy v kruhu rodinném) a částečně pomohl i Internet... 8-)

Kód: Vybrat vše

E|-----------------------------|-----------------------------|
H|---0---------------0---------|--0---1---0---1---3---0------|
G|-------2---0---2-------0-----|-----------------------------|
D|-----------------------------|-----------------------------|
A|-----------------------------|-----------------------------|
E|-----------------------------|-----------------------------|


E|-----------------------------|
H|-----------------------------|
G|---2---0---------------------|
D|-----------4~~~~-------------|
A|-----------------------------|
E|-----------------------------|


E|---7-----------------7-------|---7---8---7---8---10---7~---|
H|-------10---8---10-------8---|-----------------------------|
G|-----------------------------|-----------------------------|
D|-----------------------------|-----------------------------|
A|-----------------------------|-----------------------------|
E|-----------------------------|-----------------------------|


E|-----------------------------|
H|---10---8---7~~~~------------|
G|-----------------------------|
D|-----------------------------|
A|-----------------------------|
E|-----------------------------|


E|-----------7-----------------|-----------------------------|
H|---8---10-----10----8--7~~~~-|-------7--8--7---------------|
G|-----------------------------|---9-------------9---7~~~~---|
D|-----------------------------|-----------------------------|
A|-----------------------------|-----------------------------|
E|-----------------------------|-----------------------------| 

2x
E|-----------------------------|-----------------------------|
H|-----------------------------|-----------------------------|
G|--------6---7------9--7--6---|-----------------------------|
D|---9-------------------------|---9--7--9~~~~---------------|
A|-----------------------------|-----------------------------|
E|-----------------------------|-----------------------------|
Za případné doplnění či opravu budu moc rád! ;)

Odpovědět