4/4(8/8) = pimamiam

Riffy, sóla, techniky, cvičení... aneb praxe všeobecně
Odpovědět
Smajda
Příspěvky: 409
Registrován: 06 dub 2009 18:44

4/4(8/8) = pimamiam

Příspěvek od Smajda » 17 kvě 2009 12:46

4/4(8/8) vybrnkávání alias p imamiam

Vysvětlení jak to vysvětluje Tobi je takové: p imamiam

já bych vám to nejlépe vysvětlil takhle (počítám s tím, že umíte tabulaturu :roll: )
chytneme akord D a hrajeme

Kód: Vybrat vše

|------------2-------2--|
|---------3----3-------3|
|-------2---------2-----|
|---0-------------------|
|-----------------------|
|-----------------------|
chytneme akord G a hrajeme

Kód: Vybrat vše

|------------3------3---|
|---------0----0------0-|
|-------0--------0------|
|-----------------------|
|-----------------------|
|---3-------------------|
"vylepšené" G vypadá takto

Kód: Vybrat vše

|------------3------3---|
|---------3----3------3-|
|-------0--------0------|
|-----------------------|
|-----------------------|
|---3-------------------|
hodně zdaru! 8-)
Takovej malilinkatej kytarista Šmajdíček :)

Podpoře prosím fórum přidáním banneru na váš web.

Mard
Příspěvky: 4
Registrován: 11 pro 2009 20:06

Re: 4/4(8/8) = pimamiam

Příspěvek od Mard » 15 pro 2009 19:39

Smajda píše:4/4(8/8) vybrnkávání alias p imamiam

Vysvětlení jak to vysvětluje Tobi je takové: p imamiam

já bych vám to nejlépe vysvětlil takhle (počítám s tím, že umíte tabulaturu :roll: )
chytneme akord D a hrajeme

Kód: Vybrat vše

|------------2-------2--|
|---------3----3-------3|
|-------2---------2-----|
|---0-------------------|
|-----------------------|
|-----------------------|
chytneme akord G a hrajeme

Kód: Vybrat vše

|------------3------3---|
|---------0----0------0-|
|-------0--------0------|
|-----------------------|
|-----------------------|
|---3-------------------|
"vylepšené" G vypadá takto

Kód: Vybrat vše

|------------3------3---|
|---------3----3------3-|
|-------0--------0------|
|-----------------------|
|-----------------------|
|---3-------------------|
hodně zdaru! 8-)



Ja tomu nerozumim tem cislam xD

Janny
Příspěvky: 289
Registrován: 25 čer 2009 18:47

Re: 4/4(8/8) = pimamiam

Příspěvek od Janny » 15 pro 2009 20:00

Dej si do google jak číst tabulaturu ;)

najde ti to třeba

http://plihal.wz.cz/karel-plihal/navod- ... latur.html nebo http://kytarovenebe.cz/jak-cist-tabulaturu.php a hafo dalších :pravidla:

Mard
Příspěvky: 4
Registrován: 11 pro 2009 20:06

Re: 4/4(8/8) = pimamiam

Příspěvek od Mard » 16 pro 2009 15:45

Aha jo diky smajda,to je ten nejlepsi blog.Diky vam sem se toho uz hodne naucil ;) :)

Smajda
Příspěvky: 409
Registrován: 06 dub 2009 18:44

Re: 4/4(8/8) = pimamiam

Příspěvek od Smajda » 16 pro 2009 16:01

to nás těší :) ;)
Takovej malilinkatej kytarista Šmajdíček :)

Podpoře prosím fórum přidáním banneru na váš web.

SWED
Příspěvky: 14
Registrován: 09 pro 2009 16:30

Re: 4/4(8/8) = pimamiam

Příspěvek od SWED » 16 pro 2009 19:16

Jo taky dik ;) .. ale uvital bych pouziti v praxi treba nakou pisnicku a videjko ..

Mard
Příspěvky: 4
Registrován: 11 pro 2009 20:06

Re: 4/4(8/8) = pimamiam

Příspěvek od Mard » 16 pro 2009 20:42

Jo jeste sem se chtel zeptat,proc tam sou treba 3 ty 0 nebo tri 3???vim ze se to mam hrat na tretim prazci,ale proc je tam ta trojka trikrat ??? :shock:

Janny
Příspěvky: 289
Registrován: 25 čer 2009 18:47

Re: 4/4(8/8) = pimamiam

Příspěvek od Janny » 16 pro 2009 21:03

Protože je to akord G ;)

Máš na první, druhé a poslední struně prsty na třetím pražci, chňápem? :)

Odpovědět