3/4 pimami (jiný způsob)

Riffy, sóla, techniky, cvičení... aneb praxe všeobecně
Odpovědět
Smajda
Příspěvky: 409
Registrován: 06 dub 2009 18:44

3/4 pimami (jiný způsob)

Příspěvek od Smajda » 17 kvě 2009 12:38

Další způsob, jak hrát 3/4 vybrnkávání je todle.
Vysvětlení jak to vysvětluje Tobi je takové: p imami

já bych vám to nejlépe vysvětlil takhle (počítám s tím, že umíte tabulaturu :roll: )
chytneme akord D a hrajeme

Kód: Vybrat vše

|------------2---------|
|---------3----3-------|
|-------2---------2----|
|---0------------------|
|----------------------|
|----------------------|
chytneme akord G a hrajeme

Kód: Vybrat vše

|------------3---------|
|---------0----0-------|
|-------0--------0-----|
|----------------------|
|----------------------|
|---3------------------|
"vylepšené" G vypadá takto

Kód: Vybrat vše

|------------3---------|
|---------3----3-------|
|-------0--------0-----|
|----------------------|
|----------------------|
|---3------------------|
hodně zdaru! 8-)
Takovej malilinkatej kytarista Šmajdíček :)

Podpoře prosím fórum přidáním banneru na váš web.

Odpovědět