Power akord - 5.část: oktávy (doplnění minulé části)

Riffy, sóla, techniky, cvičení... aneb praxe všeobecně
Odpovědět
Milan
Příspěvky: 372
Registrován: 04 led 2011 09:11

Power akord - 5.část: oktávy (doplnění minulé části)

Příspěvek od Milan » 19 bře 2011 10:42

V minulé části jsem popsal přidání oktávy prvního nebo druhého tónu power akordu.
Akord ale můžeme obohatit tím, že k němu přidáme obě oktávy najednou - oktávu základního tónu (primy) a oktávu druhého tónu (kvinty) power akordu.

1. Přidání obou oktáv do power akordu
Jak a kde tyto oktávy najdeme, tak to jsem popsal v předchozí části. Takže rovnou přejdu k příkladu akordu D5 (vlevo je základní akord D5, vpravo akord D5 rozšířený o obě oktávy):

e--------------------------
H--------------------------
G--------------------7-----oktáva základního tónu D
D--------7-----------7-----tón A
A--------5-----------5-----tón D
E---------------------5----oktáva druhého tónu A

Pro snazší orientaci všech "úprav" power akordů, o kterých jsem psal v předchozích částech, zde uvádím varianty power akordu D5:

e------------------------------------------------
H------------------------------------------------
G-----------------------7----------------7------
D-------7---------------7-------7-------7------
A-------5------5-------5-------5-------5------
E---------------5---------------5-------5-------


Zleva:
1. D5
2. Obrat D5 neboli D5/A
3. D5 s oktávou prvního tónu D
4. D5 s oktávou druhého tónu A
5. D5 s oběma oktávami tónů D a A


A aby těch variant nebylo málo :D , můžeme ještě udělat následující:

2. Přidání oktávy druhého tónu akordu směrem nahoru

Ve 4.části jsem vysvětlil přidání oktávy druhého tónu akordu (kvinty) směrem dolů, viz:
Přidaná oktáva druhého tónu power akordu
Méně častá obměna power akordů, ale pro úplnost ji zde uvedu.
Do power akordu můžeme také přidat pouze oktávu druhého tónu akordu. Tato oktáva se přidává směrem dolů. Oktávu směrem dolů najdu podle stejného pravidla jako oktávu směrem nahoru, ale samozřejmě opačným směrem.

Opět příklad na akordu C5:
e--------------------------------------------------------
H--------------------------------------------------------
G--------------------------------------------------------
D-------------5----------------------------5-------------tón G
A-------------3----------------------------3-------------tón C
E---------------------------3--------------3-------------oktáva tónu G(=G-1)
akord.......C5........oktáva G......C5 s přidanou oktávou G-1
tóny........(C+G)........(G-1)........(G-1+C+G)
Tuto oktávu ale můžeme přidat do akordu směrem nahoru (příklad akordu A5):

e--------------------------------------------------------
H--------------------------------------------------------
G---------------------------9--------------9-------------oktáva tónu E(=E+1)
D--------------------------------------------------------
A-------------7----------------------------7-------------tón E
E-------------5----------------------------5-------------tón A
akord.......A5........oktáva E.......A5 s přidanou oktávou E+1
tóny........(A+E)........(E+1).........(A+E+E+1)


V tomto případě je ale nutné tlumit nehranou strunu D. Čím budu tlumit, tak to vychází z prstokladu:
Ukazovák - 5.pražec
Prostředník nebo prsteník - 7.pražec (bříškem prstu utlumit nehranou strunu)
Malík - 9.pražec.
Jak jsem ale už uvedl, jedná se o méně častou variantu obohacení power akordu.
Navíc když se dostanu s akordem na vyšší struny a "přelezu" strunu G, tak čtyři prsty hmatníkové ruky budou muset obsáhnout 4.struny a 6.pražců. Takže nepraktické a pro mě osobně nepoužitelné.

Pokud se tu zabývám oktávami, chtěl bych zmínit ještě techniku hraní samotných oktáv.

3. Oktávová hra
Oktávová hra je taková, při které hrajeme dva stejné tóny v intervalu oktávy (= 12.půltónů = 12.pražců). Jak a kde najdeme oktávu příslušného tónu je tedy jasné a pro příklad uvedu oktávy s použitím prázdných strun:

e--------------------------------------------------7---------
H---------------------------------------8---------0---------
G-----------------------------7---------0-------------------
D-------------------7---------0-----------------------------
A---------7---------0---------------------------------------
E---------0-------------------------------------------------
oktáva.E-E1....A-A1.....D-D1.....G-G1....H-h1


Při hraní oktáv ostatních tónů na hmatníku (hrají se ob jednu nebo dvě struny) musíme dát opět pozor na tlumení nehraných strun.

O oktávách toho bylo myslím už dost a tak tedy na závěr přikládám video o hraní oktáv.

Odpovědět