Green day - Holiday solo

Riffy, sóla, techniky, cvičení... aneb praxe všeobecně
Odpovědět
SpeedEX
Příspěvky: 74
Registrován: 04 led 2010 20:37

Green day - Holiday solo

Příspěvek od SpeedEX » 11 bře 2011 07:43

Klidně tu kytaru trochu přebudit gainem, aby zněl ten poslední tón dlouho :)

Kód: Vybrat vše

Solo 
E|------------|----------------|-------8------8-|---------------------|
B|-6-6-6--8-9-|----------8-5---|----6-----6-----|-6-6-6--8-9----------|
G|------------|-8-6-5--5-----5-|-5--------------|------------8-6-5-5/-|
D|------------|----------------|----------------|---------------------|
A|------------|----------------|----------------|---------------------|
E|------------|----------------|----------------|---------------------|

E|------------------------|-------------------------|------------------------|
B|------------------------|-13-13-13-13-13-13-13-13-|-17-17-17-17-17-17-17-17|
G|-12-12-12-12-12-12-12-12|-------------------------|------------------------|
D|------------------------|-------------------------|------------------------|
A|------------------------|-------------------------|------------------------|
E|------------------------|-------------------------|------------------------|

E|---------------------|-----------------------------------------------------|
B|-17-17-17-17-17-17-17|—18~~~~~~~~~-----------------------------------------|
G|---------------------|-----------------------------------------------------|
D|---------------------|-----------------------------------------------------|
A|---------------------|-----------------------------------------------------|
E|---------------------|-----------------------------------------------------|

OndrejCvrk
Příspěvky: 4
Registrován: 29 úno 2012 15:44

Re: Green day - Holiday solo

Příspěvek od OndrejCvrk » 29 úno 2012 16:32

Ten kluk, co je na tom videu, tak to je tragédie. Má to naučené z tabulatury a není v tom žádný cit. Žádné vibrato, legato ... všechno zahrané staccatem přesně jak je na tabulatuře. :(

Odpovědět