Dukla vozovna

Riffy, sóla, techniky, cvičení... aneb praxe všeobecně
Odpovědět
bezdek6
Příspěvky: 10
Registrován: 15 led 2011 14:37

Dukla vozovna

Příspěvek od bezdek6 » 22 led 2011 18:24

Prosím jaký rytmus se dá hrát k písničce Dukla vozovna - Bílá vdova
http://www.youtube.com/watch?v=wSSApXR-pgg

Dejw

Re: Dukla vozovna

Příspěvek od Dejw » 22 led 2011 20:03

Písnička je postavena na 4 akordech a to:

Emi, C, G, D

Intro a první sloka je vybrnkávání - to ti bohužel teď nerozepíšu, protože nemám kytaru ve standardním ladění. Dodám časem...

A refrén:
v v ^ v v ^ v v ^ ^ v ^
MARIHUANA & ROCK'N ROLL
je moje milá nejmilejší vždycy bude mou

Rytmus jenom lehce naznačenej, chce to chvilku zkoušet.

Jinak Dukla vozovna je skvělá skupina. A nej song aspoň pro mě Skáčko :D

bezdek6
Příspěvky: 10
Registrován: 15 led 2011 14:37

Re: Dukla vozovna

Příspěvek od bezdek6 » 22 led 2011 22:53

Super děkuju :thx:

bezdek6
Příspěvky: 10
Registrován: 15 led 2011 14:37

Re: Dukla vozovna

Příspěvek od bezdek6 » 01 úno 2011 17:11

Prosim, napsal bys mi sem jak hrát tu sloku, pořád to zkouším, ale nevim si s tim rady. Jinak refren bez problému.

Dejw

Re: Dukla vozovna

Příspěvek od Dejw » 01 úno 2011 17:51

Tak já bych začal nějakým pěkným intrem, takovej menší cover té harmoniky (v nahrávce 0:08):

Kód: Vybrat vše

E ------------------------------------------------------------------
G ---------------------------------------8----8--10-8--------------
B -10---9-----10-9-7-----7-9---10-9-10---10----------10-9--10--9-
D --------------------10--------------------------------------------
A ------------------------------------------------------------------
E ------------------------------------------------------------------

E -----------------------------------------------------------------
G ---------------------------------------8----8--10-11-10--8------
B -10---9-----10-9-7-----7-9---10-9-10---10-----------------10---
D --------------------10-------------------------------------------
A -----------------------------------------------------------------
E -----------------------------------------------------------------

Kytaru mám stále v drop C, ale tohle by mělo znít, kdyžtak to opravím... pokud budeš hrát to intro ve sloce, tak se nic nestane a pořád to bude znít jako ta písnička.

Kdybys to přeci jen chtěl hrát podle originálu, tak ten kytarovej začátek najdeš na supermusik.sk, nebudu to sem překopírovávat, zkus se tam na to podívat a zkoušet to podle toho...

bezdek6
Příspěvky: 10
Registrován: 15 led 2011 14:37

Re: Dukla vozovna

Příspěvek od bezdek6 » 02 úno 2011 20:31

Děkuju moc :thx:

Odpovědět